  0
SECTION
  2
HEADER
  9
$ACADVER
  1
AC1009
  9
$MEASUREMENT
  70
0
  9
$INSUNITS
  70
1
  9
$DIMLFAC
  40
0.999999995904
  9
$INSBASE
  10
0.0
  20
0.0
  30
0.0
  9
$EXTMIN
  10
1.999999991808
  20
2.000000253952
  9
$EXTMAX
  10
26.875000782848
  20
29.350000852992
  9
$LIMMIN
  10
1.999999991808
  20
2.000000253952
  9
$LIMMAX
  10
26.875000782848
  20
29.350000852992
  9
$CLAYER
  8
0
  0
ENDSEC
  0
SECTION
  2
TABLES
  0
TABLE
  2
LTYPE
  70
2
  0
LTYPE
  2
CONTINUOUS
  70
65
  3
Solid line
  72
65
  73
0
  40
0
  0
LTYPE
  2
DASHED
  70
65
  3
 _ _ _ _ _ _ _ _ _ _ _ _ _ _ _ _ _ _ _ _ _ _
  72
65
  73
2
  40
0.078740160512
  49
0.039370080256
  49
-0.039370080256
  0
ENDTAB
  0
TABLE
  2
LAYER
  70
1
  0
LAYER
  2
0
  70
0
  62
7
  6
CONTINUOUS
  0
ENDTAB
  0
ENDSEC
  0
SECTION
  2
BLOCKS
  0
ENDSEC
  0
SECTION
  2
ENTITIES
  0
LINE
  8
0
  10
1.999999969963
  20
29.349999615527
  30
0.25
  11
1.999999969963
  21
4.849999615527
  31
0.25
  0
LINE
  8
0
  10
1.999999969963
  20
4.850000096118
  30
0.25
  11
26.874999969963
  21
4.850000096118
  31
0.25
  0
LINE
  8
0
  10
26.875
  20
4.850000096118
  30
0.25
  11
26.875
  21
29.350000096118
  31
0.25
  0
LINE
  8
0
  10
26.875
  20
29.349999615527
  30
0.25
  11
2
  21
29.349999615527
  31
0.25
  0
LINE
  8
0
  10
1.999999969963
  20
4.500000120148
  30
0.25
  11
1.999999969963
  21
2.000000120148
  31
0.25
  0
LINE
  8
0
  10
1.999999969963
  20
2.000000120148
  30
0.25
  11
26.624999969963
  21
2.000000120148
  31
0.25
  0
LINE
  8
0
  10
26.625000961184
  20
2.000000120148
  30
0.25
  11
26.625000961184
  21
4.500000120148
  31
0.25
  0
LINE
  8
0
  10
26.625000961184
  20
4.500000120148
  30
0.25
  11
2.000000961184
  21
4.500000120148
  31
0.25
  0
LINE
  8
0
  10
3.850000036044
  20
8.725000216266
  30
0
  11
25.025000036044
  21
8.725000216266
  31
0
  0
ARC
  8
0
  10
25.025000384473
  20
8.974999855822
  30
0
  40
0.25
  50
270
  51
360
  0
LINE
  8
0
  10
25.27499942329
  20
8.974999855822
  30
0
  11
25.27499942329
  21
24.724999855822
  31
0
  0
ARC
  8
0
  10
25.025000384473
  20
24.72500057671
  30
0
  40
0.25
  50
0
  51
90
  0
LINE
  8
0
  10
25.025000384473
  20
24.974999615527
  30
0
  11
3.850000384473
  21
24.974999615527
  31
0
  0
ARC
  8
0
  10
3.850000036044
  20
24.72500057671
  30
0
  40
0.25
  50
90
  51
180
  0
LINE
  8
0
  10
3.600000096118
  20
24.72500057671
  30
0
  11
3.600000096118
  21
8.97500057671
  31
0
  0
ARC
  8
0
  10
3.850000036044
  20
8.974999855822
  30
0
  40
0.25
  50
180
  51
270
  0
ENDSEC
  0
EOF
